0
SECTION
2
HEADER
9
$INSUNITS
70
4
9
$ACADVER
1
AC1014
9
$HANDSEED
5
FFFF
0
ENDSEC
0
SECTION
2
TABLES
0
TABLE
2
VPORT
5
8
100
AcDbSymbolTable
0
ENDTAB
0
TABLE
2
LTYPE
5
5
100
AcDbSymbolTable
0
LTYPE
5
14
100
AcDbSymbolTableRecord
100
AcDbLinetypeTableRecord
2
BYBLOCK
70
0
0
LTYPE
5
15
100
AcDbSymbolTableRecord
100
AcDbLinetypeTableRecord
2
BYLAYER
70
0
0
ENDTAB
0
TABLE
2
LAYER
5
2
100
AcDbSymbolTable
70
2
0
LAYER
5
50
100
AcDbSymbolTableRecord
100
AcDbLayerTableRecord
2
0
70
0
6
CONTINUOUS
0
ENDTAB
0
TABLE
2
STYLE
5
3
100
AcDbSymbolTable
70
1
0
STYLE
5
11
100
AcDbSymbolTableRecord
100
AcDbTextStyleTableRecord
2
STANDARD
70
0
0
ENDTAB
0
TABLE
2
VIEW
5
6
100
AcDbSymbolTable
70
0
0
ENDTAB
0
TABLE
2
UCS
5
7
100
AcDbSymbolTable
70
0
0
ENDTAB
0
TABLE
2
APPID
5
9
100
AcDbSymbolTable
70
2
0
APPID
5
12
100
AcDbSymbolTableRecord
100
AcDbRegAppTableRecord
2
ACAD
70
0
0
ENDTAB
0
TABLE
2
DIMSTYLE
5
A
100
AcDbSymbolTable
70
1
0
ENDTAB
0
TABLE
2
BLOCK_RECORD
5
1
100
AcDbSymbolTable
70
1
0
BLOCK_RECORD
5
1F
100
AcDbSymbolTableRecord
100
AcDbBlockTableRecord
2
*MODEL_SPACE
0
BLOCK_RECORD
5
1B
100
AcDbSymbolTableRecord
100
AcDbBlockTableRecord
2
*PAPER_SPACE
0
ENDTAB
0
ENDSEC
0
SECTION
2
BLOCKS
0
BLOCK
5
20
100
AcDbEntity
100
AcDbBlockBegin
2
*MODEL_SPACE
0
ENDBLK
5
21
100
AcDbEntity
100
AcDbBlockEnd
0
BLOCK
5
1C
100
AcDbEntity
100
AcDbBlockBegin
2
*PAPER_SPACE
0
ENDBLK
5
1D
100
AcDbEntity
100
AcDbBlockEnd
0
ENDSEC
0
SECTION
2
ENTITIES
0
ARC
5
100
100
AcDbEntity
8
0
100
AcDbCircle
10
414.33345237791536
20
851.27591608818034
30
0
40
3.3000000000001495
210
0
220
-0
230
1
100
AcDbArc
50
45.000000000010466
51
225.00000000000836
0
LINE
5
101
100
AcDbEntity
8
0
100
AcDbLine
10
416.66690475583067
20
853.6093684660965
30
0
11
429.99999999999994
21
853.60936846609616
31
0
0
LINE
5
102
100
AcDbEntity
8
0
100
AcDbLine
10
429.99999999999994
20
853.60936846609616
30
0
11
430.00000000000006
21
928.60936846609638
31
2.2204460492503131e-15
0
LINE
5
103
100
AcDbEntity
8
0
100
AcDbLine
10
430.00000000000006
20
928.60936846609638
30
2.2204460492503131e-15
11
0
21
928.60936846609638
31
0
0
LINE
5
104
100
AcDbEntity
8
0
100
AcDbLine
10
0
20
928.60936846609638
30
0
11
-7.1054273576010031e-14
21
853.60936846609638
31
0
0
LINE
5
105
100
AcDbEntity
8
0
100
AcDbLine
10
-7.1054273576010031e-14
20
853.60936846609638
30
0
11
13.333095244169417
21
853.6093684660965
31
1.5777218104420236e-29
0
ARC
5
106
100
AcDbEntity
8
0
100
AcDbCircle
10
15.666547622084682
20
851.27591608818034
30
4.8533434598558343e-31
40
3.3000000000000722
210
-9.8130778667787578e-18
220
-2.9439233600319202e-17
230
1
100
AcDbArc
50
-45.000000000010232
51
134.999999999989
0
LINE
5
107
100
AcDbEntity
8
0
100
AcDbLine
10
17.999999999999893
20
848.94246371026429
30
-4.5796699765789967e-17
11
17.999999999999908
21
808.27627322192768
31
7.2164496600635175e-14
0
ARC
5
108
100
AcDbEntity
8
0
100
AcDbCircle
10
15.666547622083925
20
805.94282084401232
30
5.7852711615458375e-31
40
3.300000000000074
210
-2.1847749289128804e-30
220
-1.9626155733547627e-17
230
1
100
AcDbArc
50
-134.99999999999608
51
44.999999999992404
0
LINE
5
109
100
AcDbEntity
8
0
100
AcDbLine
10
13.333095244168426
20
803.6093684660965
30
-4.5796699765797424e-17
11
-7.1054273576010019e-14
21
803.60936846609616
31
3.944304526105059e-29
0
LINE
5
110
100
AcDbEntity
8
0
100
AcDbLine
10
-7.1054273576010019e-14
20
803.60936846609616
30
3.944304526105059e-29
11
-7.1054273576010031e-14
21
708.11728820340534
31
0
0
LINE
5
111
100
AcDbEntity
8
0
100
AcDbLine
10
-7.1054273576010031e-14
20
708.11728820340534
30
0
11
13.333095244168835
21
708.11728820340568
31
7.1054273576010006e-14
0
ARC
5
112
100
AcDbEntity
8
0
100
AcDbCircle
10
15.666547622084298
20
705.78383582548952
30
7.1054273576010006e-14
40
3.2999999999999718
210
9.8130778667720525e-18
220
-9.8130778667709755e-18
230
1
100
AcDbArc
50
-44.999999999998018
51
134.99999999999145
0
LINE
5
113
100
AcDbEntity
8
0
100
AcDbLine
10
17.99999999999994
20
703.45038344757404
30
7.1008476876244228e-14
11
17.999999999999908
21
662.78419295923709
31
1.1102230246251565e-15
0
ARC
5
114
100
AcDbEntity
8
0
100
AcDbCircle
10
15.666547622084721
20
660.45074058132116
30
0
40
3.2999999999999119
210
9.8130778667719878e-18
220
9.8130778667754098e-18
230
1
100
AcDbArc
50
-134.99999999999642
51
45.000000000009159
0
LINE
5
115
100
AcDbEntity
8
0
100
AcDbLine
10
13.333095244169309
20
658.11728820340545
30
4.5796699765786971e-17
11
-7.1054273576010019e-14
21
658.11728820340522
31
3.5498740734945531e-29
0
LINE
5
116
100
AcDbEntity
8
0
100
AcDbLine
10
-7.1054273576010019e-14
20
658.11728820340522
30
3.5498740734945531e-29
11
0
21
582.62520794071679
31
0
0
LINE
5
117
100
AcDbEntity
8
0
100
AcDbLine
10
0
20
582.62520794071679
30
0
11
430
21
582.62520794071679
31
7.1054273576010019e-14
0
LINE
5
118
100
AcDbEntity
8
0
100
AcDbLine
10
430
20
582.62520794071679
30
7.1054273576010019e-14
11
429.99999999999994
21
658.11728820340534
31
7.1054273576010019e-14
0
LINE
5
119
100
AcDbEntity
8
0
100
AcDbLine
10
429.99999999999994
20
658.11728820340534
30
7.1054273576010019e-14
11
416.66690475583084
21
658.11728820340534
31
-3.5498740734945531e-29
0
ARC
5
120
100
AcDbEntity
8
0
100
AcDbCircle
10
414.33345237791536
20
660.45074058132116
30
1.1247430875221457e-30
40
3.2999999999999479
210
-1.9626155733548696e-17
220
-1.9626155733545982e-17
230
1
100
AcDbArc
50
134.99999999999443
51
314.99999999999579
0
LINE
5
121
100
AcDbEntity
8
0
100
AcDbLine
10
412
20
662.78419295923698
30
4.5500632494733506e-30
11
412.00000000000011
21
703.45038344757427
31
-1.1102230246251565e-15
0
ARC
5
122
100
AcDbEntity
8
0
100
AcDbCircle
10
414.33345237791576
20
705.78383582548963
30
7.1054273576010019e-14
40
3.2999999999999985
210
-9.8130778667755115e-18
220
-9.8130778667741171e-18
230
1
100
AcDbArc
50
45.000000000002089
51
224.99999999999653
0
LINE
5
123
100
AcDbEntity
8
0
100
AcDbLine
10
416.6669047558313
20
708.11728820340534
30
7.1100070275775809e-14
11
429.99999999999994
21
708.11728820340534
31
7.1054273576010006e-14
0
LINE
5
124
100
AcDbEntity
8
0
100
AcDbLine
10
429.99999999999994
20
708.11728820340534
30
7.1054273576010006e-14
11
429.99999999999994
21
803.60936846609616
31
7.1054273576010019e-14
0
LINE
5
125
100
AcDbEntity
8
0
100
AcDbLine
10
429.99999999999994
20
803.60936846609616
30
7.1054273576010019e-14
11
416.66690475583164
21
803.6093684660965
31
7.8886090522101181e-30
0
ARC
5
126
100
AcDbEntity
8
0
100
AcDbCircle
10
414.33345237791616
20
805.94282084401232
30
0
40
3.3000000000000989
210
0
220
0
230
1
100
AcDbArc
50
135.00000000001117
51
314.99999999999579
0
LINE
5
127
100
AcDbEntity
8
0
100
AcDbLine
10
412
20
808.27627322192757
30
0
11
412
21
848.94246371026429
31
0
0
ENDSEC
0
SECTION
2
OBJECTS
0
DICTIONARY
5
C
100
AcDbDictionary
3
ACAD_GROUP
350
D
3
ACAD_MLINESTYLE
350
17
0
DICTIONARY
5
D
100
AcDbDictionary
0
DICTIONARY
5
1A
330
C
100
AcDbDictionary
0
DICTIONARY
5
17
100
AcDbDictionary
0
ENDSEC
0
EOF
